Honey, donít

Perkins Ė Beatles: Beatles For Sale (1964)

 


Intro:E

E†††††††††††††††††††††††††††††††††††††††††††††††††††††††††††††††††††† C

Well how come you say you will when you wonít,

Say you do baby when you donít?

E††††††††††††††††††††††††††††††††††††††††††††††††††††††† C

Let me know honey how you feel

††††††† B7/9

Tell the truth now, is love real, ah ah ha

 

†† ††††††E

Well honey donít, well honey donít

††††††††††††††††††††††††††††††††††† A†††††††† ††††††† E

Honey donít, honey donít, honey donít

†††††††††††††† B7††††††††††††††††††††††††††††††††††††††††††††††††††† E

I say you will when you wonít, ah, ha honey donít

 

Well I love you baby and you oughta know

I like the way that you wear your clothes,

If itís in a bath with the dog on sweet

You got that sand all over your feet, ah ah ha

 

Well honey donít, well honey donít

Honey donít, honey donít, honey donít

I say you will when you wonít, ah, ha honey donít

 

Ah rock on yours on time for me - Ah, pretty fine

Solo_1: ECECB7Solo_2:EAEB7E

 

Iíll say, well sometimes I love you on a Saturday night

Sunday morning you donít look right

Youíve been out painting the town

Ah-ha baby being stepiní around, but ah-ha

 

Well honey donít, well honey donít

Honey donít, honey donít, honey donít

I say you will when you wonít, ah, ha honey donít

 

Ah rock on your string for one time

Solo_1: ECECB7E

A

Well honey donít, well honey donít

†††††††† E

A little late, honey donít

†††† B7††††††††††††††††††††††††††††††††††††††††††††††††† E††† End:

I say you will when you wonít, ah, ha honey donít

 

Intro:-3x----3x----2x--††

e|------0----0----0--

B|------0------------

G|---3h4ó-2h3ó-1h2-1-

 

Riff_1:

D|-------------22----------|

A|-------22-44ó---44-22----|

E|-00-44----------------44-|

 

Riff_2:

D|-------------------------|

A|-------22-44ó55-44-22----|

E|-00-44----------------44-|

 

Riff_3:

D|-------22-44ó55-44-22----|

A|-00-44----------------44-|

E|-------------------------|

 

Riff_4:

D|-------------22--2-------|

A|-------22-42ó---4--------|

E|-00-44-------------------|

 

Riff_5:

D|-------------------------|

A|-0h2-2-00----------------|

E|----------44-22----------|

 

Riff_6: --------3x----------

D|-------------------------|

A|---------22-42ó----------|

E|---00-44-------0---------|

††††††††† ---------2x------------

D|---------22-42ó------22-44-|

A|---00-44-------0--22-------|

E|---------------------------|

 

Solo:††† E .†† C .Riff_5 Riff_6 Riff_4

e|----12-12----------------|

B|----12-13----------------|

G|----13-12----------------|

 

End:

e|----0-0-0-----0-

B|----0-0-0-----0-

G|-3h4-3-2-1--1-1-

D|----------2-2-2-

A|-----------2--2-

E|--------------0-