Iím down

Lennon / McCartney ĖBeatles: Rock Ďní Roll Music (1976)

 


You tell lies thinking I canít see,

G

You canít cry cause youíre laughing at me

††††††† C

Iím down (Iím really down),

††††††† G

Iím down (down on the ground),

††††††† C

Iím down (Iím really down)

D7††††††††††††††††††† G

How can you laugh, when you know Iím down?

D7††††††††††††††††††† G

(How can you laugh), when you know Iím down?

 

G

Men buy rings women throw it away,

G

Same old thing happen everyday

Iím down (Iím really down),

Iím down (down on the ground),

Iím down (Iím really down)

How can you laugh when you know Iím down?

(How can you laugh) when you know Iím down?

 

(Solo:)

 

Weíre all alone with nobody else

She still says no, keep your hand to yourself

Iím down (Iím really down),

Iím down (down on the ground),

Iím down (Iím really down)

How can you laugh when you know Iím down?

(How can you laugh) when you know Iím down?

 

(Solo:)

 

Baby, you know Iím down (Iím really down)

I guess Iím down (Iím really down)

Down on the ground (Iím really down)

Yeah down (Iím really down)

I think Iím upside down

Yeah, yeah, yeah, yeah, yeah!

 

Yeah! (Iím really down)

Baby, Iím down (Iím really down)

I think Iím upside down (Iím really down)

On the ground (Iím really down)

I think Iím down

Yeah, I think Iím down, yeah

 

I think Iím down (Iím really down)

I think Iím down (Iím really down)

I think Iím down (Iím really down)

 

Solo:

e-----------------------------------

B-----------------------------------

G-----------------------------------

D--------3----------------------3---

A----3h5---5-----1---1-3----3h5---5-

E-3----------v6----3------3---------

 

e-----------------------------------

B-----------------------------------

G------------------------3---3-5b7--

D-3-6b7-6b7-6b7-3----3h5---5--------

A-----------------3-----------------

E-----------------------------------

 

e-----------------------------------

B-----------------------------------

G-5b7-5b7-3-----3---v7-v7-v7-v7-----

D-----------5-5---5-----------------

A-----------------------------------

E-----------------------------------

 

e-----------------------------------

B-----------------------------------

G-v7v7v7h5\3------------------------

D------------5---------3------------

A------------------3-5---4b5r4------

E--------------3-6-------------6-3--

 

Voices:

 

††††† Iím really down/ down on the ground

e---3--5-3---3-----3---5--3---3-----

B---1--3-1---1-----3---6--3---3-----

 

††††† Iím really down/ How can you laugh

e---3--5-3---0-----2---2---2--3-----

B---1--3-1---1-----1---1---1--0-----