Último desejo

Araci de Almeida (Noel Rosa)  -1938

Intro:  Bbm / F Dm G  C7  F  Bo

              Fm                        Bbm

Nosso amor, que eu não esqueço

                               C7                                        Fm      G  C7  Fm

E que teve o seu começo, numa festa de São João

                            G                     Bbm                  C#7

Morre hoje sem foguete, sem retrato e sem bilhete

                              C7

Sem luar, sem violão

                               F7

D--2-3-5-3-2-0----------------

A--3-4-6-4-3-1-3--------------

E--------------5--------------

                              Bbm                                    C7

Perto de você me calo, tudo penso e nada falo

                                Fm

Tenho medo de chorar

                   F7                         Bbm

D----3-2-1--3-4-3-1-------------

A--3----------------4-3-1-------

E-------------------------------

                                             Fm                                        F#

Nunca mais quero os seus beijos, pois meu último desejo

    C7                       F     D7  G  C7  F

Você não pode negar

                                  G                                        C7

Se alguma pessoa amiga, pedir que você lhe diga

                                   Fm

Se você me quer ou não

   C7                             Fm

D--------------------------------

A---2-3-4-3-1--------------------

E-------------4-3-1--------------

                                  G              Bbm               C#7    

Diga que você me adora, que você lamenta e chora

                          C7

A nossa separação

                                       F

D--------------------------------

A---2-3-4-3-1--------------------

E-------------4-3-1--------------

                                  G                                        C7

E às pessoas que eu detesto, diga sempre que eu não presto

                                        Fm   F7

Que meu lar é um botequim

       Bbm  Bbm        F             Dm                             G

Que eu arruinei sua vida, que eu não mereço a comida

            C7                     F

Que você pagou prá mim

e--------------------------------

B------1-------0-----------------

G-----2-2-----1-3----------------

D----3---3---3---5---------------

A---3-----3-2-----6-4-3----------

E--------------------------------